                                                                        S      1
,,7HAB3526B,27HNo Iges File Name specified,22HAutodesk Inventor 2011,   G      1
37HAutoDesk Inventor Iges Exporter R2011,32,38,6,99,15,7HAB3526B,1.0D0, G      2
2,2HMM,1,.08D0,15H20120106.081200,.01D0,10000.0D0,4HDunn,,11,0,,;       G      3
     406       1       0       0       1       0       0       000000000D      1
     406       0       0       1       3                               0D      2
     116       2       0       0       0       0       0       000010000D      3
     116       0       0       1       0                               0D      4
     123       3       0       0       0       0       0       000010200D      5
     123       0       0       1       0                               0D      6
     192       4       0       0       0       0       0       000010000D      7
     192       0       0       1       1                               0D      8
     123       5       0       0       0       0       0       000010200D      9
     123       0       0       1       0                               0D     10
     504       6       0       0       0       0       0       000010001D     11
     504       0       0       5       1                               0D     12
     502      11       0       0       0       0       0       000010000D     13
     502       0       0      10       1                               0D     14
     110      21       0       0       0       0       0       000010000D     15
     110       0       0       2       0                               0D     16
     100      23       0       0       0       0      19       000010000D     17
     100       0       0       1       0                               0D     18
     124      24       0       0       0       0       0       000000000D     19
     124       0       0       2       0                               0D     20
     110      26       0       0       0       0       0       000010000D     21
     110       0       0       2       0                               0D     22
     100      28       0       0       0       0      25       000010000D     23
     100       0       0       1       0                               0D     24
     124      29       0       0       0       0       0       000000000D     25
     124       0       0       2       0                               0D     26
     508      31       0       0       0       0       0       000010000D     27
     508       0       0       1       1                               0D     28
     510      32       0       0       0       0       0       000010000D     29
     510       0    -179       1       1                               0D     30
     116      33       0       0       0       0       0       000010000D     31
     116       0       0       1       0                               0D     32
     123      34       0       0       0       0       0       000010200D     33
     123       0       0       1       0                               0D     34
     192      35       0       0       0       0       0       000010000D     35
     192       0       0       1       1                               0D     36
     123      36       0       0       0       0       0       000010200D     37
     123       0       0       1       0                               0D     38
     110      37       0       0       0       0       0       000010000D     39
     110       0       0       2       0                               0D     40
     100      39       0       0       0       0      43       000010000D     41
     100       0       0       1       0                               0D     42
     124      40       0       0       0       0       0       000000000D     43
     124       0       0       2       0                               0D     44
     110      42       0       0       0       0       0       000010000D     45
     110       0       0       2       0                               0D     46
     100      44       0       0       0       0      19       000010000D     47
     100       0       0       1       0                               0D     48
     508      45       0       0       0       0       0       000010000D     49
     508       0       0       1       1                               0D     50
     510      46       0       0       0       0       0       000010000D     51
     510       0    -181       1       1                               0D     52
     116      47       0       0       0       0       0       000010000D     53
     116       0       0       1       0                               0D     54
     123      48       0       0       0       0       0       000010200D     55
     123       0       0       1       0                               0D     56
     192      49       0       0       0       0       0       000010000D     57
     192       0       0       1       1                               0D     58
     123      50       0       0       0       0       0       000010200D     59
     123       0       0       1       0                               0D     60
     110      51       0       0       0       0       0       000010000D     61
     110       0       0       2       0                               0D     62
     100      53       0       0       0       0      65       000010000D     63
     100       0       0       2       0                               0D     64
     124      55       0       0       0       0       0       000000000D     65
     124       0       0       2       0                               0D     66
     110      57       0       0       0       0       0       000010000D     67
     110       0       0       2       0                               0D     68
     100      59       0       0       0       0      43       000010000D     69
     100       0       0       2       0                               0D     70
     508      61       0       0       0       0       0       000010000D     71
     508       0       0       1       1                               0D     72
     510      62       0       0       0       0       0       000010000D     73
     510       0    -183       1       1                               0D     74
     116      63       0       0       0       0       0       000010000D     75
     116       0       0       1       0                               0D     76
     123      64       0       0       0       0       0       000010200D     77
     123       0       0       1       0                               0D     78
     192      65       0       0       0       0       0       000010000D     79
     192       0       0       1       1                               0D     80
     123      66       0       0       0       0       0       000010200D     81
     123       0       0       1       0                               0D     82
     100      67       0       0       0       0      43       000010000D     83
     100       0       0       2       0                               0D     84
     100      69       0       0       0       0      65       000010000D     85
     100       0       0       2       0                               0D     86
     508      71       0       0       0       0       0       000010000D     87
     508       0       0       1       1                               0D     88
     510      72       0       0       0       0       0       000010000D     89
     510       0    -183       1       1                               0D     90
     116      73       0       0       0       0       0       000010000D     91
     116       0       0       1       0                               0D     92
     123      74       0       0       0       0       0       000010200D     93
     123       0       0       1       0                               0D     94
     190      75       0       0       0       0       0       000010000D     95
     190       0       0       1       1                               0D     96
     123      76       0       0       0       0       0       000010200D     97
     123       0       0       1       0                               0D     98
     508      77       0       0       0       0       0       000010000D     99
     508       0       0       1       1                               0D    100
     510      78       0       0       0       0       0       000010000D    101
     510       0    -183       1       1                               0D    102
     116      79       0       0       0       0       0       000010000D    103
     116       0       0       1       0                               0D    104
     123      80       0       0       0       0       0       000010200D    105
     123       0       0       1       0                               0D    106
     192      81       0       0       0       0       0       000010000D    107
     192       0       0       1       1                               0D    108
     123      82       0       0       0       0       0       000010200D    109
     123       0       0       1       0                               0D    110
     100      83       0       0       0       0      19       000010000D    111
     100       0       0       2       0                               0D    112
     100      85       0       0       0       0      43       000010000D    113
     100       0       0       2       0                               0D    114
     508      87       0       0       0       0       0       000010000D    115
     508       0       0       1       1                               0D    116
     510      88       0       0       0       0       0       000010000D    117
     510       0    -181       1       1                               0D    118
     116      89       0       0       0       0       0       000010000D    119
     116       0       0       1       0                               0D    120
     123      90       0       0       0       0       0       000010200D    121
     123       0       0       1       0                               0D    122
     190      91       0       0       0       0       0       000010000D    123
     190       0       0       1       1                               0D    124
     123      92       0       0       0       0       0       000010200D    125
     123       0       0       1       0                               0D    126
     508      93       0       0       0       0       0       000010000D    127
     508       0       0       1       1                               0D    128
     508      94       0       0       0       0       0       000010000D    129
     508       0       0       1       1                               0D    130
     510      95       0       0       0       0       0       000010000D    131
     510       0    -181       1       1                               0D    132
     116      96       0       0       0       0       0       000010000D    133
     116       0       0       1       0                               0D    134
     123      97       0       0       0       0       0       000010200D    135
     123       0       0       1       0                               0D    136
     192      98       0       0       0       0       0       000010000D    137
     192       0       0       1       1                               0D    138
     123      99       0       0       0       0       0       000010200D    139
     123       0       0       1       0                               0D    140
     100     100       0       0       0       0      25       000010000D    141
     100       0       0       2       0                               0D    142
     100     102       0       0       0       0      19       000010000D    143
     100       0       0       2       0                               0D    144
     508     104       0       0       0       0       0       000010000D    145
     508       0       0       1       1                               0D    146
     510     105       0       0       0       0       0       000010000D    147
     510       0    -179       1       1                               0D    148
     116     106       0       0       0       0       0       000010000D    149
     116       0       0       1       0                               0D    150
     123     107       0       0       0       0       0       000010200D    151
     123       0       0       1       0                               0D    152
     190     108       0       0       0       0       0       000010000D    153
     190       0       0       1       1                               0D    154
     123     109       0       0       0       0       0       000010200D    155
     123       0       0       1       0                               0D    156
     508     110       0       0       0       0       0       000010000D    157
     508       0       0       1       1                               0D    158
     508     111       0       0       0       0       0       000010000D    159
     508       0       0       1       1                               0D    160
     510     112       0       0       0       0       0       000010000D    161
     510       0    -179       1       1                               0D    162
     116     113       0       0       0       0       0       000010000D    163
     116       0       0       1       0                               0D    164
     123     114       0       0       0       0       0       000010200D    165
     123       0       0       1       0                               0D    166
     190     115       0       0       0       0       0       000010000D    167
     190       0       0       1       1                               0D    168
     123     116       0       0       0       0       0       000010200D    169
     123       0       0       1       0                               0D    170
     508     117       0       0       0       0       0       000010000D    171
     508       0       0       1       1                               0D    172
     510     118       0       0       0       0       0       000010000D    173
     510       0    -179       1       1                               0D    174
     514     119       0       0       0       0       0       000010000D    175
     514       0       0       1       1                               0D    176
     186     120       0       0       1       0       0       000000000D    177
     186       0       0       1       0                  Solid1       0D    178
     314     121       0       0       0       0       0       000000000D    179
     314       0       5       1       0                               0D    180
     314     122       0       0       0       0       0       000000000D    181
     314       0       8       1       0                               0D    182
     314     123       0       0       0       0       0       000000000D    183
     314       0       8       1       0                               0D    184
406,2,0,7HAB3526B;                                                     1P      1
116,162.857990533502D0,165.509424295518D0,0.0D0,0;                     3P      2
123,0.0D0,0.0D0,1.0D0;                                                 5P      3
192,3,5,17.5D0,9;                                                      7P      4
123,-1.0D0,0.0D0,0.0D0;                                                9P      5
504,18,15,13,1,13,2,17,13,1,13,3,21,13,3,13,4,23,13,2,13,4,39,        11P      6
13,5,13,6,41,13,5,13,7,45,13,7,13,8,47,13,6,13,8,61,13,9,13,10,       11P      7
63,13,9,13,11,67,13,11,13,12,69,13,10,13,12,83,13,12,13,10,85,        11P      8
13,11,13,9,111,13,8,13,6,113,13,7,13,5,141,13,4,13,2,143,13,3,        11P      9
13,1;                                                                 11P     10
502,12,145.357990533502D0,165.509424295518D0,.25D0,                   13P     11
145.357990533502D0,165.509424295518D0,0.0D0,180.357990533502D0,       13P     12
165.509424295518D0,.25D0,180.357990533502D0,165.509424295518D0,       13P     13
0.0D0,150.357990533502D0,165.509424295518D0,.52D0,                    13P     14
150.357990533502D0,165.509424295518D0,.25D0,175.357990533502D0,       13P     15
165.509424295518D0,.52D0,175.357990533502D0,165.509424295518D0,       13P     16
.25D0,151.107990533502D0,165.509424295518D0,.53D0,                    13P     17
151.107990533502D0,165.509424295518D0,.52D0,174.607990533502D0,       13P     18
165.509424295518D0,.53D0,174.607990533502D0,165.509424295518D0,       13P     19
.52D0;                                                                13P     20
110,145.357990533502D0,165.509424295518D0,.25D0,                      15P     21
145.357990533502D0,165.509424295518D0,0.0D0;                          15P     22
100,0.0D0,0.0D0,0.0D0,17.5D0,0.0D0,-17.5D0,2.14313189850787D-15;      17P     23
124,-1.0D0,0.0D0,0.0D0,162.857990533502D0,0.0D0,1.0D0,0.0D0,          19P     24
165.509424295518D0,0.0D0,0.0D0,-1.0D0,.25D0;                          19P     25
110,180.357990533502D0,165.509424295518D0,.25D0,                      21P     26
180.357990533502D0,165.509424295518D0,0.0D0;                          21P     27
100,0.0D0,0.0D0,0.0D0,17.5D0,0.0D0,-17.5D0,2.14313189850787D-15;      23P     28
124,-1.0D0,0.0D0,0.0D0,162.857990533502D0,0.0D0,1.0D0,0.0D0,          25P     29
165.509424295518D0,0.0D0,0.0D0,-1.0D0,0.0D0;                          25P     30
508,4,0,11,1,0,0,0,11,2,1,0,0,11,3,1,0,0,11,4,0,0;                    27P     31
510,7,1,1,27;                                                         29P     32
116,162.857990533502D0,165.509424295518D0,.25D0,0;                    31P     33
123,0.0D0,0.0D0,1.0D0;                                                33P     34
192,31,33,12.5D0,37;                                                  35P     35
123,-1.0D0,0.0D0,0.0D0;                                               37P     36
110,150.357990533502D0,165.509424295518D0,.52D0,                      39P     37
150.357990533502D0,165.509424295518D0,.25D0;                          39P     38
100,0.0D0,0.0D0,0.0D0,12.5D0,0.0D0,-12.5D0,1.53080849893419D-15;      41P     39
124,-1.0D0,0.0D0,0.0D0,162.857990533502D0,0.0D0,1.0D0,0.0D0,          43P     40
165.509424295518D0,0.0D0,0.0D0,-1.0D0,.52D0;                          43P     41
110,175.357990533502D0,165.509424295518D0,.52D0,                      45P     42
175.357990533502D0,165.509424295518D0,.25D0;                          45P     43
100,0.0D0,0.0D0,0.0D0,12.5D0,0.0D0,-12.5D0,1.53080849893419D-15;      47P     44
508,4,0,11,5,0,0,0,11,6,1,0,0,11,7,1,0,0,11,8,0,0;                    49P     45
510,35,1,1,49;                                                        51P     46
116,162.857990533502D0,165.509424295518D0,.52D0,0;                    53P     47
123,0.0D0,0.0D0,1.0D0;                                                55P     48
192,53,55,11.75D0,59;                                                 57P     49
123,-1.0D0,0.0D0,0.0D0;                                               59P     50
110,151.107990533502D0,165.509424295518D0,.53D0,                      61P     51
151.107990533502D0,165.509424295518D0,.52D0;                          61P     52
100,0.0D0,0.0D0,0.0D0,11.75D0,0.0D0,-11.75D0,                         63P     53
1.43895998899814D-15;                                                 63P     54
124,-1.0D0,0.0D0,0.0D0,162.857990533502D0,0.0D0,1.0D0,0.0D0,          65P     55
165.509424295518D0,0.0D0,0.0D0,-1.0D0,.53D0;                          65P     56
110,174.607990533502D0,165.509424295518D0,.53D0,                      67P     57
174.607990533502D0,165.509424295518D0,.52D0;                          67P     58
100,0.0D0,0.0D0,0.0D0,11.75D0,0.0D0,-11.75D0,                         69P     59
1.43895998899814D-15;                                                 69P     60
508,4,0,11,9,0,0,0,11,10,1,0,0,11,11,1,0,0,11,12,0,0;                 71P     61
510,57,1,1,71;                                                        73P     62
116,162.857990533502D0,165.509424295518D0,.52D0,0;                    75P     63
123,0.0D0,0.0D0,1.0D0;                                                77P     64
192,75,77,11.75D0,81;                                                 79P     65
123,-1.0D0,0.0D0,0.0D0;                                               81P     66
100,0.0D0,0.0D0,0.0D0,-11.75D0,1.43895998899814D-15,11.75D0,          83P     67
-2.87791997799628D-15;                                                83P     68
100,0.0D0,0.0D0,0.0D0,-11.75D0,1.43895998899814D-15,11.75D0,          85P     69
-2.87791997799628D-15;                                                85P     70
508,4,0,11,9,1,0,0,11,13,0,0,0,11,11,0,0,0,11,14,1,0;                 87P     71
510,79,1,1,87;                                                        89P     72
116,162.857990533502D0,165.509424295518D0,.53D0,0;                    91P     73
123,0.0D0,0.0D0,1.0D0;                                                93P     74
190,91,93,97;                                                         95P     75
123,1.0D0,0.0D0,0.0D0;                                                97P     76
508,2,0,11,14,0,0,0,11,10,0,0;                                        99P     77
510,95,1,1,99;                                                       101P     78
116,162.857990533502D0,165.509424295518D0,.25D0,0;                   103P     79
123,0.0D0,0.0D0,1.0D0;                                               105P     80
192,103,105,12.5D0,109;                                              107P     81
123,-1.0D0,0.0D0,0.0D0;                                              109P     82
100,0.0D0,0.0D0,0.0D0,-12.5D0,1.53080849893419D-15,12.5D0,           111P     83
-3.06161699786838D-15;                                               111P     84
100,0.0D0,0.0D0,0.0D0,-12.5D0,1.53080849893419D-15,12.5D0,           113P     85
-3.06161699786838D-15;                                               113P     86
508,4,0,11,5,1,0,0,11,15,0,0,0,11,7,0,0,0,11,16,1,0;                 115P     87
510,107,1,1,115;                                                     117P     88
116,162.857990533502D0,165.509424295518D0,.52D0,0;                   119P     89
123,0.0D0,0.0D0,1.0D0;                                               121P     90
190,119,121,125;                                                     123P     91
123,1.0D0,0.0D0,0.0D0;                                               125P     92
508,2,0,11,16,0,0,0,11,6,0,0;                                        127P     93
508,2,0,11,13,1,0,0,11,12,1,0;                                       129P     94
510,123,2,1,127,129;                                                 131P     95
116,162.857990533502D0,165.509424295518D0,0.0D0,0;                   133P     96
123,0.0D0,0.0D0,1.0D0;                                               135P     97
192,133,135,17.5D0,139;                                              137P     98
123,-1.0D0,0.0D0,0.0D0;                                              139P     99
100,0.0D0,0.0D0,0.0D0,-17.5D0,2.14313189850787D-15,17.5D0,           141P    100
-4.28626379701574D-15;                                               141P    101
100,0.0D0,0.0D0,0.0D0,-17.5D0,2.14313189850787D-15,17.5D0,           143P    102
-4.28626379701574D-15;                                               143P    103
508,4,0,11,1,1,0,0,11,17,0,0,0,11,3,0,0,0,11,18,1,0;                 145P    104
510,137,1,1,145;                                                     147P    105
116,162.857990533502D0,165.509424295518D0,.25D0,0;                   149P    106
123,0.0D0,0.0D0,1.0D0;                                               151P    107
190,149,151,155;                                                     153P    108
123,1.0D0,0.0D0,0.0D0;                                               155P    109
508,2,0,11,18,0,0,0,11,2,0,0;                                        157P    110
508,2,0,11,15,1,0,0,11,8,1,0;                                        159P    111
510,153,2,1,157,159;                                                 161P    112
116,162.857990533502D0,165.509424295518D0,0.0D0,0;                   163P    113
123,0.0D0,0.0D0,-1.0D0;                                              165P    114
190,163,165,169;                                                     167P    115
123,-1.0D0,0.0D0,0.0D0;                                              169P    116
508,2,0,11,17,1,0,0,11,4,1,0;                                        171P    117
510,167,1,1,171;                                                     173P    118
514,10,29,1,51,1,73,1,89,1,101,1,117,1,131,1,147,1,161,1,173,1;      175P    119
186,175,1,0;                                                         177P    120
314,78.0391991138458D0,56.8626999855042D0,11.3724999129772D0,;       179P    121
314,80.0000011920929D0,80.0000011920929D0,80.0000011920929D0,;       181P    122
314,50.5882024765015D0,50.5882024765015D0,50.5882024765015D0,;       183P    123
S      1G      3D    184P    123                                        T      1
